Tabs


Johnny Cash style lick

 

Gtr I (E A D G B E) - 'Untitled'

4/4
Gtr I
|--------------------------------------------------------|
|--------------------------------------------------------|
|--------------------------------------------------------|
|--------------------------------------------------------|
|--------------------------2------------------------2---|
|-4--4--4--4--4--0--0------4--4--4--4--4--0--0------|

|------------------------------------------------------|
|------------------------------------------------------|
|------------------------------------------------------|
|--------------------------------2-------------------------|
|-2--4--4--4--4--4--4--0--0-----2--4--4--4--4--0--------|
|-------------------------------------------------------2b3--0--|

|-----------------------------------------------------|
|-----------------------------------------------------|
|-----------------------------------------------------|
|-----------------------------------------------------|
|-----------------------------2--------------2--4--4--4---|
|-2S=4--4--4--4--4--0--0-----4--4--4--4---------------|

|-----------------------|
|-----------------------|
|-----------------------|
|-----------------------|
|-----------------------|
|S/-4--4--4--4--4--3--2b3--0----|

Home Page
Home